Master Class Básico 01

O objetivo geral das aulas é desenvolver e revelar o talento de cada um . Master Class vai do básico nº 01 ao avançado nº 100 .

Master Class Básico 01 Master Class Básico 01 Master Class Básico 01 Escola de Musica Fernando Carvalho
R$ 10 , 00 Pague com PayPal

Conteúdo do curso

O que você vai aprender?

Introdução
Conteúdo do curso Aula gratuita!

O Master Class 01 conta com escrita em partitura e tablatura , começamos com :

01- as notas das cordas soltas 

02- Tremolo Pcking 50 BPM

03- Mão Direita 01 

04- Mão esquerda 

05- Dicionario de acordes

06- Troca de acordes A e E  com 50 ,60 e 65 BPM

07 - Escala de C na Corda A

08- Primeira Melodia 

09- Arpejo Acordes de A e E 

10- Tercina 01 corda D

Generic
Conteúdo da aula
Arquivo - 433 KB
Master Class 01 / Livro
lock

 

O Master Class 01  já foi testado em

centenas de alunos , com ótimo resultado

este é a introdução ao método que vem em pdf e áudio

começamos com as cordas soltas .

 

 

 

Pdf
Conteúdo da aula
PDF - 95,9 KB
Nota E ( mi ) Aula gratuita!

Começamos com a corda mais grave

que é a de mumero 6  Nota E ( mi )

No exercicio você vai tocar com :

Palhetada para Baixo na guitarra 

Indicador e Medio no Violão 

A cada 4 tempos toca a nota E grave .

Primeiro toque junto com o audio até dar 20 minutos

 depois cante a nota por mais 10 minutos 

Fazer 2x no primeiro dia .

Audio
Conteúdo da aula
Áudio - 2,05 MB
Nota A ( lá )
lock

 

No exercicio você vai tocar com :

Palhetada para Baixo na guitarra 

Indicador e Medio no Violão 

A cada 4 tempos toca a nota A  .

Audio
Conteúdo da aula
Áudio - 2,05 MB
Nota D ( ré )
lock

Nota D (  ré )

No exercicio você vai tocar com :

Palhetada para Baixo na guitarra 

Indicador e Medio no Violão 

A cada 4 tempos toca a nota D  .

Audio
Conteúdo da aula
Áudio - 2,05 MB
Nota G ( sol )
lock

No exercicio você vai tocar com :

Palhetada para Baixo na guitarra 

Indicador e Medio no Violão 

A cada 4 tempos toca a nota G  .

Audio
Conteúdo da aula
Áudio - 2,05 MB
Nota B ( si )
lock

Nota B ( si )

No exercicio você vai tocar com :

Palhetada para Baixo na guitarra 

Indicador e Medio no Violão 

A cada 4 tempos toca a nota B  

Audio
Conteúdo da aula
Áudio - 2,05 MB
Nota E ( mi )
lock

Nota E (  mi )

No exercicio você vai tocar com :

Palhetada para Baixo na guitarra 

Indicador e Medio no Violão 

A cada 4 tempos toca a nota E  

Audio
Conteúdo da aula
Áudio - 2,05 MB
Tremolo Picking
Tremolo Picking / 50 BPM
lock

 

Tremolo é a repetição rápida de uma nota .
Segure a palheta de 2mm firme, sem fazer força excessiva.
Mantendo um ritmo constante, palhete a 5ª corda ( A ) na guitarra
em palhetada alternadas , para baixo .e para cima .
Quanto mais treinar melhor ira tocar .

Nunca Desista

 

Audio
Conteúdo da aula
Áudio - 2,45 MB
Mão Direita 01 : 4x
Mão Direita 01 / 50 bpm Aula gratuita!

Iremos tocar 4x cada corda solta começando com a e agudo 

subimos a o grave e voltamos , para violão com indicador e medio 

para palheta tocar para baixo e para cima 

E|--0000---------------------------------------------------
B|----------0000--------------------------------------------
G|------------------0000-----------------------------------
D|--------------------------0000----------------------------
A|----------------------------------0000----------0000----
E|------------------------------------------0000------------

4x por dia .

Audio
Conteúdo da aula
Áudio - 4,43 MB
Mão Direita 01 / 60 bpm
lock


Iremos tocar 4x cada corda solta começando com a e agudo 

subimos a o grave e voltamos , para violão com indicador e medio 

para palheta tocar para baixo e para cima 

E|--0000---------------------------------------------------
B|----------0000--------------------------------------------
G|------------------0000-----------------------------------
D|--------------------------0000----------------------------
A|----------------------------------0000----------0000----
E|------------------------------------------0000------------

4x por dia .

Audio
Conteúdo da aula
Áudio - 3,69 MB
Mão Direita 01 / 70 bpm
lock

Iremos tocar 4x cada corda solta começando com a e agudo 

subimos a o grave e voltamos , para violão com indicador e medio 

para palheta tocar para baixo e para cima 

E|--0000---------------------------------------------------
B|----------0000--------------------------------------------
G|------------------0000-----------------------------------
D|--------------------------0000----------------------------
A|----------------------------------0000----------0000----
E|------------------------------------------0000------------

4x por dia .

Audio
Conteúdo da aula
Áudio - 3,17 MB
Mão Esquerda dedos 1 e 2
Mão Esquerda 30 bpm
lock

Dedos 1 e 2  . Atenção no polegar que tem que estar na reta do dedo 2 


E|--11--12-------------------------------------------------
B|----------11--12------------------------------------------
G|------------------11--12---------------------------------
D|--------------------------11--12--------------------------
A|----------------------------------11--12----------11--12--
E|------------------------------------------11--12-----------

Audio
Conteúdo da aula
Áudio - 3,69 MB
Mão Esquerda 40 bpm
lock


Dedos 1 e 2  . Atenção no polegar que tem que estar na reta do dedo 2 


E|--11--12-------------------------------------------------
B|----------11--12------------------------------------------
G|------------------11--12---------------------------------
D|--------------------------11--12--------------------------
A|----------------------------------11--12----------11--12--
E|------------------------------------------11--12-----------

Audio
Conteúdo da aula
Áudio - 2,78 MB
Mão Esquerda 50 bpm
lock


Dedos 1 e 2  . Atenção no polegar que tem que estar na reta do dedo 2 


E|--11--12-------------------------------------------------
B|----------11--12------------------------------------------
G|------------------11--12---------------------------------
D|--------------------------11--12--------------------------
A|----------------------------------11--12----------11--12--
E|------------------------------------------11--12-----------

Audio
Conteúdo da aula
Áudio - 2,23 MB
Dicionario de acordes
Acorde de A
lock

Acorde de 3 sons  tríades = A C# E

Generic
Conteúdo da aula
Arquivo - 32,9 KB
Acorde de E
lock

Acorde de 3 sons tríades = E G# B

Generic
Conteúdo da aula
Arquivo - 34,4 KB
Acorde de D
lock

Acorde de 3 sons = D F# A

Generic
Conteúdo da aula
Arquivo - 31,9 KB
Acordes Básicos
lock

Os acordes de começo serão A D e E .

Video
Conteúdo da aula
Video - 1:09
Dicionário de Acordes 01 Aula gratuita!

A E D G C a e d

Escola de Musica on-line :

https://escolademusicafernandocarvalho.coursify.me/

Video
Conteúdo da aula
Video - 1:09
Troca de acordes A e E
A e E - 01 Aula gratuita!

Treine junto com ritmo de Marcha , baixo e cima .

Video
Conteúdo da aula
Video - 2:47
A e E - 02
lock

Treine junto 

Video
Conteúdo da aula
Video - 3:20
Primeira Melodia
Escala de C / Corda A - 70 BPM Aula gratuita!

A melodia

C D E F FF / C D C D DD / C G F E EE / C D E F FF

Video
Conteúdo da aula
Video - 2:18
Tercina 01 corda D
Tercina 01 - 30 BPM Aula gratuita!

Preparação para Tercina 01 


D-----7-5-7---7-5-7---7-5-7---7-5-7--/

Video
Conteúdo da aula
Video - 1:59
Palestra
Palestra sobre : Organizar seu tempo
lock

Organizar seu tempo musical do amador ao profissional AO VIVO no YouNow June 20, 2018 https://www.younow.com/cascarasagrada/181336586/1280395/b8508bdi/b

Video
Conteúdo da aula
Video - 13:26

Escola de Musica Fernando Carvalho

Aprenda musica online Violão , Guitarra ...
Tecnologia
Tec coursify